Contact Info / Websites

NOTICE!!!

2017-08-09 15:02:42 by Urbanus

Due to my busy life as a wedding photographer I generally don't have time to log in on a regular basis to check for messages. Please forward all liscensing and usage inquiries to:

jnd_photography@yahoo.com


Reverb Nation Profile

2011-03-09 17:00:07 by Urbanus
Updated

UPDATE!!!!!!!: 

I don't know why it took me so long to change this but my reverb nation account has been dead for years. I have always freely offered my music  for download under the Creative Commons but if you feel so compelled to throw me a dollar or two, PM me and I will hit you up with my paypal information. Thanks and have a great day :)

 

 

-----------------------------------------------------------

Hey guys! Just wanted to let you guys know that I have a Reverb Nation profile where you can buy a few of my country singles. Here's the link:

http://www.reverbnation.com/store/inde x/artist_1342740


Ready Steady Lyrics

2009-08-07 01:13:45 by Urbanus

I don't want to disappoint you or make you run away
I'll do the best I can to make you want to stay
'Cause baby if you leave me now I'll surely fall apart
Knowing that our love would end before it could even start

And baby I'm ready, steady waiting for something good
I'm holding out for you in ways that can't be understood
I'm down on my begging knees praying that the time is right
To show how much I'd care for you if you'd stay with me tonight

We don't have to rush things baby if that's not what you like
I'd much rather take it easy than wind up in a fight
But if you get that notion honey, please don't hesitate
To ask me what you'd like to do until that morning breaks

And baby I'm ready, steady waiting for something good
I'm holding out for you in ways that can't be understood
I'm down on my begging knees praying that the time is right
To show how much I'd care for you if you'd stay with me tonight

Maybe if I look into a crystal ball I'd know just when
To sweep you off your feet into a room just down the hall
Patience is a virtue and I'm sure that just might be true
But if I keep this manic pace up, I just might trip and fall

And baby I'm ready, steady waiting for something good
I'm holding out for you in ways that can't be understood
I'm down on my begging knees praying that the time is right
To show how much I'd care for you if you'd stay with me tonight


Cosmic Karma Lyrics

2009-07-29 21:49:14 by Urbanus

Here are the lyrics for Brain Freeze's new song "Cosmic Karma"

Floating through the air no regard for time and space
Free flowing energy escapes
On top of the clouds the world I know
Is fast asleep, asleep below
Easy comes as easy flows
Controls the souls of those ready to let go

Metamorphasize
Realize that I'm

Weightless...Breathless

Explosions in the atmosphere
I feel the constellations as I disappear
The sky above is a crystal blue
Transcending the realms of what is false and true
Feel the cosmic karma planning for rebirth
I'm falling ever faster to the earth

Metamorphasize
Realize that I'm

Weightless....Breathless

Repeat First Verse


New Song

2009-06-21 02:08:22 by Urbanus

Hey guys! I posted a new song on the audio portal. It's called "Love Rocket".


Ugh...thats nasty looking....

2008-10-02 03:53:55 by Urbanus

Scratch that tab folks...head on over to ultimate-guitar.com for the tabs


Spanish Waltz Tab

2008-10-02 03:33:11 by Urbanus

Here you go folks!

Castle Crashers - Store Theme

Title: Spanish Waltz
Artist: Urbanus

Tabbed by Urbanus

Tuning: Standard

Guitar I:

^ - hammer on

E-------------------------------------
--------------10--9--7----------------
-----|
B-10^12-10^12-10^12------------10-12-1 0- 10-10-8-8-------------------|
G----------------------------11-12-13-
--------------------- 9------------------|
D-------------------------------------
--------------------------------------
-------|
A-------------------------------------
--------------------------------------
-------|
E-------------------------------------
--------------------------------------
-------|

E--9---9---9---9-7--------------------
-----------|
B--10-10-10-10-8-10-8-7-5-7-----------
-----|
G---------------------11-9-7-6-7------
----------|
D-------------------------------------
-------------|
A-------------------------------------
-------------|
E-------------------------------------
-------------|

E-------------------------------------
--------------10--9--7----------------
-----|
B-10^12-10^12-10^12------------10-12-1 0- 10-10-8-8-------------------|
G----------------------------11-12-13-
--------------------- 9------------------|
D-------------------------------------
--------------------------------------
-------|
A-------------------------------------
--------------------------------------
-------|
E-------------------------------------
--------------------------------------
-------|

E--9---9---9---9-7--9-10-------------|
B--10-10-10-10-8-10---10----------|
G------------------------------11-----
--|
D---------------------------------12--
--|
A-------------------------------------
---|
E-------------------------------------
----|

E-S14-14-14-14-14-12-11-12-12-12-12-12 -------9-10-S15-15-15-15-15-12--------
-----------------|
B-------------------------------------
--------------10-12-------------------
-------------14-15-15-15-15-15-|
G-------------------------------------
--------------------------------------
--------------------------------------
--|
D-------------------------------------
--------------------------------------
--------------------------------------
--|
A-------------------------------------
--------------------------------------
--------------------------------------
--|
E-------------------------------------
--------------------------------------
--------------------------------------
--|

E---------9-12-S17-17-17-17-17-15-14-1 5-15-15-15-15------12-15-12-----------
----------------|
B-10-12-------------------------------
-----------------------------14-------
-----14-15-15-15-15-15---|
G-------------------------------------
----------------------------14--------
----------------------------------|
D-------------------------------------
--------------------------------------
-----------------------|
A-------------------------------------
--------------------------------------
-----------------------|
E-------------------------------------
--------------------------------------
-----------------------|
Guitar II

Intro:

D D
E-------------------------------------
-------------|
B-----2---2-------2---2-------2---2---
----2---2----|
G-----2---2-------2---2-------2---2---
----2---2----|
D-----2---2-------2---2-------2---2---
----2---2----|
A-0-----------------------0-----------
-------------|
E-------------0-----------------------
0------------|

Verse (4x):

D A
E-------------------------------------
-------------|
B-----2---2-------2---2-------0---0---
----0---0----|
G-----2---2-------2---2-------1---1---
----1---1----|
D-----2---2-------2---2-------2---2---
----2---2----|
A-0-----------------------2-----------
-------------|
E-------------0-----------------------
0------------|

A D
E-------------------------------------
-------------|
B-----0---0-------------------2---2---
----2---2----|
G-----1---1-------------------2---2---
----2---2----|
D-----2---2-------------------2---2---
----2---2----|
A-2-----------------------0-----------
-------------|
E-------------0---2---4---------------
0------------|


Thank You!

2008-09-10 22:25:38 by Urbanus

To everyone who liked my song Spanish Waltz:

THANK YOU VERY MUCH!!!

An especially big thank you goes out to Dan Paladin and the rest of the Behemoth crew for making my video game debut possible :)



And the god of common sense shouted out from the heavens:
"Yea verily, I have created catagories in the audio portal so that the followers of reason and order will not suffer the evil chaos of braindead nubtards. Therefore, let each type of music have its own place; the metal shall frolic with the metal, the country shall two-step with the country, the blues shall wail along with the blues, the jazz shall beatnick with the jazz, the funk shall be as one righteous mutharchucker with the funk, the rap shall continue to help the white man get ass with the rap and the miscellaneous shall ponder its identity with the miscellaneous. The techno will be with the techno, but, this I command to you Oh sons of reason and order, let the techno stay way the hell away from everything else. You must not hate the techno, for occasionally it ceases to be gay, and rocketh rather mightily but you must not strive to like it either. For I have set you apart from the braindead nubtards who are apeased by no talent hacks who think they are the shit because they can make a beat on fruity loops. This sort of thinking is asshattery for a neolithic caveman could make a beat on fruity loops. Yea, you are the followers of reason and order! I have shown you the values of complex musical theory and actual talent and you have held true to them. Therefore, let not the techno sully anything other than its own catagory, for I have given it it's proper place in the audio portal. Should a nubtard place the techno in another catagory, despair! For the mods can do nothing but twidle their thumbs and all the while you must suffer the terrors of listening to an out of place audio file. "

"But should you come across a hybrid music file be wary, yet not alarmed. For sometimes this mixing can be most excellent....and other times most heinous. Mark the mixing of heavy metal and techno. Whilst by themselves the heavy metal does kick the techno's ass, together they make a mighty force. Look no further than the prophets Ramstien and Reznor for the glorious possibilities of this union. And yea, the Grey Album doth confess the awesomeness of intermixing. But of techno files in the metal catagory let there be none or any other catagory for that matter. Above all, however, let this be undisputed...YOU SHALL NOT ALLOW THE DIFILEMENT OF THE CLASSICAL, BLUES, OR JAZZ CATAGORIES WITH THE EVILS OF TECHNO FILES!!! Should anyone be foolish enough to do so, may they die in a fire!!! For these catagories are the patriarchs of all other catagories, a sacred institution that should never be tainted by the asshattery of even good techno."

And with that the god of common sense departed with a tremendous crash and the braindead nubtards did shudder with fear while the sons of reason and order did rejoice mightily.